ISO-10303-21;
HEADER;
FILE_DESCRIPTION(('FreeCAD Model'),'2;1');
FILE_NAME('Open CASCADE Shape Model','2024-10-26T12:40:58',(''),(''),
  'Open CASCADE STEP processor 7.7','FreeCAD','Unknown');
FILE_SCHEMA(('AUTOMOTIVE_DESIGN { 1 0 10303 214 1 1 1 1 }'));
ENDSEC;
DATA;
#1 = APPLICATION_PROTOCOL_DEFINITION('international standard',
  'automotive_design',2000,#2);
#2 = APPLICATION_CONTEXT(
  'core data for automotive mechanical design processes');
#3 = SHAPE_DEFINITION_REPRESENTATION(#4,#10);
#4 = PRODUCT_DEFINITION_SHAPE('','',#5);
#5 = PRODUCT_DEFINITION('design','',#6,#9);
#6 = PRODUCT_DEFINITION_FORMATION('','',#7);
#7 = PRODUCT(
'STEMFIE Construction Standard - Template - Block Unit Hole Top Layer 
Ledge BU00.25x9.2mm - SCS-TPL-0011 (stemfie.org)',
'STEMFIE Construction Standard - Template - Block Unit Hole Top Layer 
Ledge BU00.25x9.2mm - SCS-TPL-0011 (stemfie.org)','',(#8));
#8 = PRODUCT_CONTEXT('',#2,'mechanical');
#9 = PRODUCT_DEFINITION_CONTEXT('part definition',#2,'design');
#10 = ADVANCED_BREP_SHAPE_REPRESENTATION('',(#11,#15),#131);
#11 = AXIS2_PLACEMENT_3D('',#12,#13,#14);
#12 = CARTESIAN_POINT('',(0.,0.,0.));
#13 = DIRECTION('',(0.,0.,1.));
#14 = DIRECTION('',(1.,0.,-0.));
#15 = MANIFOLD_SOLID_BREP('',#16);
#16 = CLOSED_SHELL('',(#17,#45,#70,#95,#115));
#17 = ADVANCED_FACE('',(#18,#29),#40,.F.);
#18 = FACE_BOUND('',#19,.T.);
#19 = EDGE_LOOP('',(#20));
#20 = ORIENTED_EDGE('',*,*,#21,.T.);
#21 = EDGE_CURVE('',#22,#22,#24,.T.);
#22 = VERTEX_POINT('',#23);
#23 = CARTESIAN_POINT('',(-1.9,-3.290896534381,3.125));
#24 = CIRCLE('',#25,3.8);
#25 = AXIS2_PLACEMENT_3D('',#26,#27,#28);
#26 = CARTESIAN_POINT('',(7.256664199358E-16,-8.231088913246E-16,3.125)
  );
#27 = DIRECTION('',(-2.307883832489E-16,2.602627944163E-16,-1.));
#28 = DIRECTION('',(-0.5,-0.866025403784,-1.1E-16));
#29 = FACE_BOUND('',#30,.T.);
#30 = EDGE_LOOP('',(#31));
#31 = ORIENTED_EDGE('',*,*,#32,.F.);
#32 = EDGE_CURVE('',#33,#33,#35,.T.);
#33 = VERTEX_POINT('',#34);
#34 = CARTESIAN_POINT('',(-2.3,-3.983716857408,3.125));
#35 = CIRCLE('',#36,4.6);
#36 = AXIS2_PLACEMENT_3D('',#37,#38,#39);
#37 = CARTESIAN_POINT('',(7.256664199358E-16,-8.231088913246E-16,3.125)
  );
#38 = DIRECTION('',(-2.307883832489E-16,2.602627944163E-16,-1.));
#39 = DIRECTION('',(-0.5,-0.866025403784,-1.1E-16));
#40 = PLANE('',#41);
#41 = AXIS2_PLACEMENT_3D('',#42,#43,#44);
#42 = CARTESIAN_POINT('',(7.256664199358E-16,-8.231088913246E-16,3.125)
  );
#43 = DIRECTION('',(-2.307883832489E-16,2.602627944163E-16,-1.));
#44 = DIRECTION('',(-0.5,-0.866025403784,-1.1E-16));
#45 = ADVANCED_FACE('',(#46),#65,.T.);
#46 = FACE_BOUND('',#47,.T.);
#47 = EDGE_LOOP('',(#48,#49,#57,#64));
#48 = ORIENTED_EDGE('',*,*,#32,.T.);
#49 = ORIENTED_EDGE('',*,*,#50,.T.);
#50 = EDGE_CURVE('',#33,#51,#53,.T.);
#51 = VERTEX_POINT('',#52);
#52 = CARTESIAN_POINT('',(-2.3,-3.983716857408,-2.E-15));
#53 = LINE('',#54,#55);
#54 = CARTESIAN_POINT('',(-2.3,-3.983716857408,3.125));
#55 = VECTOR('',#56,1.);
#56 = DIRECTION('',(-3.407883832489E-16,6.973720558371E-17,-1.));
#57 = ORIENTED_EDGE('',*,*,#58,.F.);
#58 = EDGE_CURVE('',#51,#51,#59,.T.);
#59 = CIRCLE('',#60,4.6);
#60 = AXIS2_PLACEMENT_3D('',#61,#62,#63);
#61 = CARTESIAN_POINT('',(0.,0.,-1.02E-15));
#62 = DIRECTION('',(-2.307883832489E-16,2.602627944163E-16,-1.));
#63 = DIRECTION('',(-0.5,-0.866025403784,-1.1E-16));
#64 = ORIENTED_EDGE('',*,*,#50,.F.);
#65 = CYLINDRICAL_SURFACE('',#66,4.6);
#66 = AXIS2_PLACEMENT_3D('',#67,#68,#69);
#67 = CARTESIAN_POINT('',(7.256664199358E-16,-8.231088913246E-16,3.125)
  );
#68 = DIRECTION('',(-2.307883832489E-16,2.602627944163E-16,-1.));
#69 = DIRECTION('',(-0.5,-0.866025403784,-1.1E-16));
#70 = ADVANCED_FACE('',(#71),#90,.F.);
#71 = FACE_BOUND('',#72,.F.);
#72 = EDGE_LOOP('',(#73,#74,#82,#89));
#73 = ORIENTED_EDGE('',*,*,#21,.T.);
#74 = ORIENTED_EDGE('',*,*,#75,.T.);
#75 = EDGE_CURVE('',#22,#76,#78,.T.);
#76 = VERTEX_POINT('',#77);
#77 = CARTESIAN_POINT('',(-1.75,-3.031088913246,2.825));
#78 = LINE('',#79,#80);
#79 = CARTESIAN_POINT('',(-1.9,-3.290896534381,3.125));
#80 = VECTOR('',#81,1.);
#81 = DIRECTION('',(0.353553390593,0.612372435696,-0.707106781187));
#82 = ORIENTED_EDGE('',*,*,#83,.F.);
#83 = EDGE_CURVE('',#76,#76,#84,.T.);
#84 = CIRCLE('',#85,3.5);
#85 = AXIS2_PLACEMENT_3D('',#86,#87,#88);
#86 = CARTESIAN_POINT('',(6.590638795574E-16,-7.384678751732E-16,2.825)
  );
#87 = DIRECTION('',(-2.307883832489E-16,2.602627944163E-16,-1.));
#88 = DIRECTION('',(-0.5,-0.866025403784,-1.1E-16));
#89 = ORIENTED_EDGE('',*,*,#75,.F.);
#90 = CONICAL_SURFACE('',#91,3.8,0.785398163397);
#91 = AXIS2_PLACEMENT_3D('',#92,#93,#94);
#92 = CARTESIAN_POINT('',(7.256664199358E-16,-8.231088913246E-16,3.125)
  );
#93 = DIRECTION('',(2.307883832489E-16,-2.602627944163E-16,1.));
#94 = DIRECTION('',(-0.5,-0.866025403784,-1.1E-16));
#95 = ADVANCED_FACE('',(#96,#99),#110,.F.);
#96 = FACE_BOUND('',#97,.T.);
#97 = EDGE_LOOP('',(#98));
#98 = ORIENTED_EDGE('',*,*,#58,.T.);
#99 = FACE_BOUND('',#100,.T.);
#100 = EDGE_LOOP('',(#101));
#101 = ORIENTED_EDGE('',*,*,#102,.F.);
#102 = EDGE_CURVE('',#103,#103,#105,.T.);
#103 = VERTEX_POINT('',#104);
#104 = CARTESIAN_POINT('',(-1.75,-3.031088913246,-2.E-15));
#105 = CIRCLE('',#106,3.5);
#106 = AXIS2_PLACEMENT_3D('',#107,#108,#109);
#107 = CARTESIAN_POINT('',(0.,0.,-7.7E-16));
#108 = DIRECTION('',(-2.307883832489E-16,2.602627944163E-16,-1.));
#109 = DIRECTION('',(-0.5,-0.866025403784,-1.1E-16));
#110 = PLANE('',#111);
#111 = AXIS2_PLACEMENT_3D('',#112,#113,#114);
#112 = CARTESIAN_POINT('',(0.,0.,-1.01E-15));
#113 = DIRECTION('',(2.307883832489E-16,-2.602627944163E-16,1.));
#114 = DIRECTION('',(0.5,0.866025403784,1.1E-16));
#115 = ADVANCED_FACE('',(#116),#126,.F.);
#116 = FACE_BOUND('',#117,.F.);
#117 = EDGE_LOOP('',(#118,#119,#124,#125));
#118 = ORIENTED_EDGE('',*,*,#83,.T.);
#119 = ORIENTED_EDGE('',*,*,#120,.T.);
#120 = EDGE_CURVE('',#76,#103,#121,.T.);
#121 = B_SPLINE_CURVE_WITH_KNOTS('',1,(#122,#123),.UNSPECIFIED.,.F.,.F.,
  (2,2),(-2.525,0.3),.PIECEWISE_BEZIER_KNOTS.);
#122 = CARTESIAN_POINT('',(-1.75,-3.031088913246,2.825));
#123 = CARTESIAN_POINT('',(-1.75,-3.031088913246,-1.11E-15));
#124 = ORIENTED_EDGE('',*,*,#102,.F.);
#125 = ORIENTED_EDGE('',*,*,#120,.F.);
#126 = CYLINDRICAL_SURFACE('',#127,3.5);
#127 = AXIS2_PLACEMENT_3D('',#128,#129,#130);
#128 = CARTESIAN_POINT('',(7.160254037844E-17,-7.598076211353E-17,0.3));
#129 = DIRECTION('',(-2.307883832489E-16,2.602627944163E-16,-1.));
#130 = DIRECTION('',(-0.5,-0.866025403784,-1.1E-16));
#131 = ( GEOMETRIC_REPRESENTATION_CONTEXT(3) 
GLOBAL_UNCERTAINTY_ASSIGNED_CONTEXT((#135)) GLOBAL_UNIT_ASSIGNED_CONTEXT
((#132,#133,#134)) REPRESENTATION_CONTEXT('Context #1',
  '3D Context with UNIT and UNCERTAINTY') );
#132 = ( LENGTH_UNIT() NAMED_UNIT(*) SI_UNIT(.MILLI.,.METRE.) );
#133 = ( NAMED_UNIT(*) PLANE_ANGLE_UNIT() SI_UNIT($,.RADIAN.) );
#134 = ( NAMED_UNIT(*) SI_UNIT($,.STERADIAN.) SOLID_ANGLE_UNIT() );
#135 = UNCERTAINTY_MEASURE_WITH_UNIT(LENGTH_MEASURE(2.E-06),#132,
  'distance_accuracy_value','confusion accuracy');
#136 = PRODUCT_RELATED_PRODUCT_CATEGORY('part',$,(#7));
#137 = MECHANICAL_DESIGN_GEOMETRIC_PRESENTATION_REPRESENTATION('',(#138)
  ,#131);
#138 = STYLED_ITEM('color',(#139),#15);
#139 = PRESENTATION_STYLE_ASSIGNMENT((#140,#146));
#140 = SURFACE_STYLE_USAGE(.BOTH.,#141);
#141 = SURFACE_SIDE_STYLE('',(#142));
#142 = SURFACE_STYLE_FILL_AREA(#143);
#143 = FILL_AREA_STYLE('',(#144));
#144 = FILL_AREA_STYLE_COLOUR('',#145);
#145 = COLOUR_RGB('',0.800000010877,0.800000010877,0.800000010877);
#146 = CURVE_STYLE('',#147,POSITIVE_LENGTH_MEASURE(0.1),#148);
#147 = DRAUGHTING_PRE_DEFINED_CURVE_FONT('continuous');
#148 = COLOUR_RGB('',9.803921802644E-02,9.803921802644E-02,
  9.803921802644E-02);
ENDSEC;
END-ISO-10303-21;
